ISO-10303-21;
HEADER;
FILE_DESCRIPTION (( 'STEP AP214' ),
    '1' );
FILE_NAME ('Õý°ËÃæÌå.',
    '2023-12-23T06:27:34',
    ( '' ),
    ( '' ),
    'SwSTEP 2.0',
    'SolidWorks 2020',
    '' );
FILE_SCHEMA (( 'AUTOMOTIVE_DESIGN' ));
ENDSEC;

DATA;
#1 = VERTEX_POINT ( 'NONE', #42 ) ;
#2 = EDGE_LOOP ( 'NONE', ( #133, #19, #69 ) ) ;
#3 = VECTOR ( 'NONE', #139, 1000.000000000000000 ) ;
#4 = AXIS2_PLACEMENT_3D ( 'NONE', #46, #110, #208 ) ;
#5 = FACE_OUTER_BOUND ( 'NONE', #117, .T. ) ;
#6 = PLANE ( 'NONE',  #103 ) ;
#7 = SURFACE_STYLE_USAGE ( .BOTH. , #71 ) ;
#8 = DIRECTION ( 'NONE',  ( -0.4999999999999956701, 0.5000000000000048850, -0.7071067811865471286 ) ) ;
#9 = DIRECTION ( 'NONE',  ( 0.000000000000000000, 0.5773502691896307271, 0.8164965809277225928 ) ) ;
#10 = CARTESIAN_POINT ( 'NONE',  ( 17.22161991095391897, -20.14265876703452918, -2.884829381011215170E-14 ) ) ;
#11 = SHAPE_DEFINITION_REPRESENTATION ( #40, #22 ) ;
#12 = DIRECTION ( 'NONE',  ( 5.911937606128958578E-15, -0.8164965809277213715, -0.5773502691896322814 ) ) ;
#13 = LINE ( 'NONE', #122, #43 ) ;
#14 = EDGE_CURVE ( 'NONE', #183, #134, #61, .T. ) ;
#15 = DIRECTION ( 'NONE',  ( 1.000000000000000000, 0.000000000000000000, 0.000000000000000000 ) ) ;
#16 =( NAMED_UNIT ( * ) PLANE_ANGLE_UNIT ( ) SI_UNIT ( $, .RADIAN. ) );
#17 = MECHANICAL_DESIGN_GEOMETRIC_PRESENTATION_REPRESENTATION (  '', ( #137 ), #193 ) ;
#18 = EDGE_LOOP ( 'NONE', ( #52, #149, #67 ) ) ;
#19 = ORIENTED_EDGE ( 'NONE', *, *, #97, .F. ) ;
#20 = APPLICATION_CONTEXT ( 'automotive_design' ) ;
#21 = EDGE_CURVE ( 'NONE', #183, #1, #124, .T. ) ;
#22 = ADVANCED_BREP_SHAPE_REPRESENTATION ( '??????', ( #146, #186 ), #23 ) ;
#23 =( GEOMETRIC_REPRESENTATION_CONTEXT ( 3 ) GLOBAL_UNCERTAINTY_ASSIGNED_CONTEXT ( ( #157 ) ) GLOBAL_UNIT_ASSIGNED_CONTEXT ( ( #178, #108, #177 ) ) REPRESENTATION_CONTEXT ( 'NONE', 'WORKASPACE' ) );
#24 = AXIS2_PLACEMENT_3D ( 'NONE', #126, #162, #173 ) ;
#25 = LINE ( 'NONE', #77, #144 ) ;
#26 = FILL_AREA_STYLE ('',( #48 ) ) ;
#27 = DIRECTION ( 'NONE',  ( 1.000000000000000000, 2.109423746787797427E-15, 7.351039242015552798E-15 ) ) ;
#28 = FILL_AREA_STYLE_COLOUR ( '', #38 ) ;
#29 = CARTESIAN_POINT ( 'NONE',  ( 50.50740032194219253, 37.07896114391941467, -9.495340403531187690 ) ) ;
#30 =( LENGTH_UNIT ( ) NAMED_UNIT ( * ) SI_UNIT ( .MILLI., .METRE. ) );
#31 = LINE ( 'NONE', #111, #169 ) ;
#32 = LINE ( 'NONE', #113, #155 ) ;
#33 = EDGE_CURVE ( 'NONE', #134, #164, #74, .T. ) ;
#34 = DIRECTION ( 'NONE',  ( -0.5773502691896307271, -1.281975124255720058E-16, -0.8164965809277225928 ) ) ;
#35 = VECTOR ( 'NONE', #8, 1000.000000000000000 ) ;
#36 = ORIENTED_EDGE ( 'NONE', *, *, #181, .F. ) ;
#37 = ORIENTED_EDGE ( 'NONE', *, *, #33, .T. ) ;
#38 = COLOUR_RGB ( '',0.7921568627450980005, 0.8196078431372548767, 0.9333333333333333481 ) ;
#39 = EDGE_CURVE ( 'NONE', #134, #199, #107, .T. ) ;
#40 = PRODUCT_DEFINITION_SHAPE ( 'NONE', 'NONE',  #54 ) ;
#41 = AXIS2_PLACEMENT_3D ( 'NONE', #138, #187, #202 ) ;
#42 = CARTESIAN_POINT ( 'NONE',  ( 17.22161991095390832, -20.14265876703443325, -2.941069377270685705E-14 ) ) ;
#43 = VECTOR ( 'NONE', #94, 1000.000000000000000 ) ;
#44 = DIRECTION ( 'NONE',  ( 0.5000000000000045519, 0.4999999999999977796, -0.7071067811865457964 ) ) ;
#45 = CARTESIAN_POINT ( 'NONE',  ( -4.929980028435152722E-14, -13.42843917802284892, 9.495340403531187690 ) ) ;
#46 = CARTESIAN_POINT ( 'NONE',  ( 37.07896114391935072, 25.59788120328337868, 8.118349481368516862 ) ) ;
#47 = CARTESIAN_POINT ( 'NONE',  ( 37.22161991095376976, -0.1426587670344259262, -28.28427124746179899 ) ) ;
#48 = FILL_AREA_STYLE_COLOUR ( '', #79 ) ;
#49 = EDGE_CURVE ( 'NONE', #199, #164, #31, .T. ) ;
#50 = DIRECTION ( 'NONE',  ( 5.218048215738236529E-15, 0.8164965809277249242, 0.5773502691896273964 ) ) ;
#51 = CARTESIAN_POINT ( 'NONE',  ( 18.53948057195965760, 5.111041393936855748, -35.71412526774901863 ) ) ;
#52 = ORIENTED_EDGE ( 'NONE', *, *, #21, .T. ) ;
#53 = ORIENTED_EDGE ( 'NONE', *, *, #14, .T. ) ;
#54 = PRODUCT_DEFINITION ( 'Î´', '', #98, #197 ) ;
#55 = ORIENTED_EDGE ( 'NONE', *, *, #49, .F. ) ;
#56 = VECTOR ( 'NONE', #204, 1000.000000000000000 ) ;
#57 = ADVANCED_FACE ( 'NONE', ( #59 ), #89, .F. ) ;
#58 = PRESENTATION_STYLE_ASSIGNMENT (( #7 ) ) ;
#59 = FACE_OUTER_BOUND ( 'NONE', #116, .T. ) ;
#60 = FACE_OUTER_BOUND ( 'NONE', #2, .T. ) ;
#61 = LINE ( 'NONE', #158, #35 ) ;
#62 = FACE_OUTER_BOUND ( 'NONE', #18, .T. ) ;
#63 = SURFACE_STYLE_USAGE ( .BOTH. , #90 ) ;
#64 = DIRECTION ( 'NONE',  ( 0.000000000000000000, 0.000000000000000000, 1.000000000000000000 ) ) ;
#65 = DIRECTION ( 'NONE',  ( -0.8660254037844394848, -0.2886751345948090353, 0.4082482904638636834 ) ) ;
#66 = VERTEX_POINT ( 'NONE', #141 ) ;
#67 = ORIENTED_EDGE ( 'NONE', *, *, #70, .F. ) ;
#68 =( GEOMETRIC_REPRESENTATION_CONTEXT ( 3 ) GLOBAL_UNCERTAINTY_ASSIGNED_CONTEXT ( ( #81 ) ) GLOBAL_UNIT_ASSIGNED_CONTEXT ( ( #95, #16, #207 ) ) REPRESENTATION_CONTEXT ( 'NONE', 'WORKASPACE' ) );
#69 = ORIENTED_EDGE ( 'NONE', *, *, #185, .T. ) ;
#70 = EDGE_CURVE ( 'NONE', #183, #66, #120, .T. ) ;
#71 = SURFACE_SIDE_STYLE ('',( #156 ) ) ;
#72 = CARTESIAN_POINT ( 'NONE',  ( 30.02056051259567937, 18.53948057195970733, -18.10043538284930875 ) ) ;
#73 = LINE ( 'NONE', #211, #56 ) ;
#74 = LINE ( 'NONE', #209, #152 ) ;
#75 = DIRECTION ( 'NONE',  ( -0.8660254037844417052, -0.2886751345948173064, 0.4082482904638534693 ) ) ;
#76 = DIRECTION ( 'NONE',  ( -7.382983113757289416E-15, 1.000000000000000000, 5.796727007540264221E-15 ) ) ;
#77 = CARTESIAN_POINT ( 'NONE',  ( 37.22161991095375555, -0.1426587670344259262, -28.28427124746180255 ) ) ;
#78 = VECTOR ( 'NONE', #131, 1000.000000000000000 ) ;
#79 = COLOUR_RGB ( '',0.7921568627450980005, 0.8196078431372548767, 0.9333333333333333481 ) ;
#80 = EDGE_LOOP ( 'NONE', ( #165, #100, #153 ) ) ;
#81 = UNCERTAINTY_MEASURE_WITH_UNIT (LENGTH_MEASURE( 1.000000000000000082E-05 ), #95, 'distance_accuracy_value', 'NONE');
#82 = EDGE_LOOP ( 'NONE', ( #198, #37, #55 ) ) ;
#83 = VECTOR ( 'NONE', #160, 1000.000000000000114 ) ;
#84 = ORIENTED_EDGE ( 'NONE', *, *, #21, .F. ) ;
#85 = ORIENTED_EDGE ( 'NONE', *, *, #214, .F. ) ;
#86 = EDGE_CURVE ( 'NONE', #1, #66, #73, .T. ) ;
#87 = MECHANICAL_DESIGN_GEOMETRIC_PRESENTATION_REPRESENTATION (  '', ( #136 ), #68 ) ;
#88 =( NAMED_UNIT ( * ) SI_UNIT ( $, .STERADIAN. ) SOLID_ANGLE_UNIT ( ) );
#89 = PLANE ( 'NONE',  #104 ) ;
#90 = SURFACE_SIDE_STYLE ('',( #210 ) ) ;
#91 = PLANE ( 'NONE',  #118 ) ;
#92 = CARTESIAN_POINT ( 'NONE',  ( 57.22161991095374134, 19.85734123296549924, 2.214504227356637283E-13 ) ) ;
#93 = DIRECTION ( 'NONE',  ( 0.2886751345948149750, 0.8660254037844397068, -0.4082482904638590759 ) ) ;
#94 = DIRECTION ( 'NONE',  ( -0.5000000000000012212, -0.5000000000000081046, 0.7071067811865409114 ) ) ;
#95 =( LENGTH_UNIT ( ) NAMED_UNIT ( * ) SI_UNIT ( .MILLI., .METRE. ) );
#96 = UNCERTAINTY_MEASURE_WITH_UNIT (LENGTH_MEASURE( 1.000000000000000082E-05 ), #30, 'distance_accuracy_value', 'NONE');
#97 = EDGE_CURVE ( 'NONE', #66, #164, #190, .T. ) ;
#98 = PRODUCT_DEFINITION_FORMATION_WITH_SPECIFIED_SOURCE ( 'ÈÎ', '', #184, .NOT_KNOWN. ) ;
#99 = CLOSED_SHELL ( 'NONE', ( #151, #102, #114, #168, #201, #142, #166, #57 ) ) ;
#100 = ORIENTED_EDGE ( 'NONE', *, *, #185, .F. ) ;
#101 = EDGE_LOOP ( 'NONE', ( #180, #191, #119 ) ) ;
#102 = ADVANCED_FACE ( 'NONE', ( #62 ), #143, .F. ) ;
#103 = AXIS2_PLACEMENT_3D ( 'NONE', #51, #50, #65 ) ;
#104 = AXIS2_PLACEMENT_3D ( 'NONE', #72, #175, #93 ) ;
#105 = PRESENTATION_LAYER_ASSIGNMENT (  '', '', ( #137 ) ) ;
#106 =( NAMED_UNIT ( * ) PLANE_ANGLE_UNIT ( ) SI_UNIT ( $, .RADIAN. ) );
#107 = LINE ( 'NONE', #47, #83 ) ;
#108 =( NAMED_UNIT ( * ) PLANE_ANGLE_UNIT ( ) SI_UNIT ( $, .RADIAN. ) );
#109 = DIRECTION ( 'NONE',  ( -0.8164965809277225928, -3.178900827222656911E-15, 0.5773502691896307271 ) ) ;
#110 = DIRECTION ( 'NONE',  ( 3.625973214694718563E-16, -0.8164965809277269226, 0.5773502691896245098 ) ) ;
#111 = CARTESIAN_POINT ( 'NONE',  ( 57.22161991095388345, 19.85734123296543885, 2.884829381011215170E-14 ) ) ;
#112 = CARTESIAN_POINT ( 'NONE',  ( 57.22161991095369160, 19.85734123296552411, 2.775557561562891351E-13 ) ) ;
#113 = CARTESIAN_POINT ( 'NONE',  ( 37.22161991095399713, -0.1426587670344571512, -28.28427124746188071 ) ) ;
#114 = ADVANCED_FACE ( 'NONE', ( #60 ), #91, .F. ) ;
#115 = CARTESIAN_POINT ( 'NONE',  ( 37.22161991095368450, -0.1426587670346515235, 28.28427124746182031 ) ) ;
#116 = EDGE_LOOP ( 'NONE', ( #154, #148, #85 ) ) ;
#117 = EDGE_LOOP ( 'NONE', ( #206, #196, #179 ) ) ;
#118 = AXIS2_PLACEMENT_3D ( 'NONE', #29, #109, #34 ) ;
#119 = ORIENTED_EDGE ( 'NONE', *, *, #129, .F. ) ;
#120 = LINE ( 'NONE', #172, #147 ) ;
#121 = LINE ( 'NONE', #189, #78 ) ;
#122 = CARTESIAN_POINT ( 'NONE',  ( 37.22161991095367028, -0.1426587670347728709, 28.28427124746187715 ) ) ;
#123 = PLANE ( 'NONE',  #4 ) ;
#124 = LINE ( 'NONE', #10, #3 ) ;
#125 = CARTESIAN_POINT ( 'NONE',  ( 37.22161991095382660, -0.1426587670344320047, -28.28427124746181676 ) ) ;
#126 = CARTESIAN_POINT ( 'NONE',  ( 11.48107994063597737, 0.000000000000000000, -8.118349481368516862 ) ) ;
#127 = APPLICATION_PROTOCOL_DEFINITION ( 'draft international standard', 'automotive_design', 1998, #20 ) ;
#128 = FACE_OUTER_BOUND ( 'NONE', #80, .T. ) ;
#129 = EDGE_CURVE ( 'NONE', #164, #183, #13, .T. ) ;
#130 = APPLICATION_PROTOCOL_DEFINITION ( 'draft international standard', 'automotive_design', 1998, #132 ) ;
#131 = DIRECTION ( 'NONE',  ( -5.908187377570840838E-16, 1.000000000000000000, -8.355438718402241100E-16 ) ) ;
#132 = APPLICATION_CONTEXT ( 'automotive_design' ) ;
#133 = ORIENTED_EDGE ( 'NONE', *, *, #49, .T. ) ;
#134 = VERTEX_POINT ( 'NONE', #192 ) ;
#135 = PRODUCT_RELATED_PRODUCT_CATEGORY ( 'part', '', ( #184 ) ) ;
#136 = STYLED_ITEM ( 'NONE', ( #170 ), #22 ) ;
#137 = STYLED_ITEM ( 'NONE', ( #58 ), #146 ) ;
#138 = CARTESIAN_POINT ( 'NONE',  ( 31.96791974998231822, 18.53948057195952970, 35.71412526774908258 ) ) ;
#139 = DIRECTION ( 'NONE',  ( -0.4999999999999971689, -0.5000000000000041078, -0.7071067811865466846 ) ) ;
#140 = FACE_OUTER_BOUND ( 'NONE', #150, .T. ) ;
#141 = CARTESIAN_POINT ( 'NONE',  ( 57.22161991095397582, -20.14265876703458247, 2.435321932759348619E-14 ) ) ;
#142 = ADVANCED_FACE ( 'NONE', ( #140 ), #176, .F. ) ;
#143 = PLANE ( 'NONE',  #200 ) ;
#144 = VECTOR ( 'NONE', #213, 1000.000000000000000 ) ;
#145 = FACE_OUTER_BOUND ( 'NONE', #101, .T. ) ;
#146 = MANIFOLD_SOLID_BREP ( 'ÇúÃæ-·', #99 ) ;
#147 = VECTOR ( 'NONE', #188, 1000.000000000000000 ) ;
#148 = ORIENTED_EDGE ( 'NONE', *, *, #39, .T. ) ;
#149 = ORIENTED_EDGE ( 'NONE', *, *, #86, .T. ) ;
#150 = EDGE_LOOP ( 'NONE', ( #53, #36, #84 ) ) ;
#151 = ADVANCED_FACE ( 'NONE', ( #5 ), #174, .F. ) ;
#152 = VECTOR ( 'NONE', #27, 1000.000000000000000 ) ;
#153 = ORIENTED_EDGE ( 'NONE', *, *, #86, .F. ) ;
#154 = ORIENTED_EDGE ( 'NONE', *, *, #181, .T. ) ;
#155 = VECTOR ( 'NONE', #44, 1000.000000000000227 ) ;
#156 = SURFACE_STYLE_FILL_AREA ( #26 ) ;
#157 = UNCERTAINTY_MEASURE_WITH_UNIT (LENGTH_MEASURE( 1.000000000000000082E-05 ), #178, 'distance_accuracy_value', 'NONE');
#158 = CARTESIAN_POINT ( 'NONE',  ( 17.22161991095391187, 19.85734123296542819, -6.938893903907228378E-15 ) ) ;
#159 = DIRECTION ( 'NONE',  ( 2.997602166487922265E-15, 0.8164965809277225928, -0.5773502691896307271 ) ) ;
#160 = DIRECTION ( 'NONE',  ( 0.4999999999999991118, -0.4999999999999990563, -0.7071067811865487940 ) ) ;
#161 = PRODUCT_CONTEXT ( 'NONE', #20, 'mechanical' ) ;
#162 = DIRECTION ( 'NONE',  ( 0.8164965809277269226, 0.000000000000000000, -0.5773502691896245098 ) ) ;
#163 = FILL_AREA_STYLE ('',( #28 ) ) ;
#164 = VERTEX_POINT ( 'NONE', #92 ) ;
#165 = ORIENTED_EDGE ( 'NONE', *, *, #214, .T. ) ;
#166 = ADVANCED_FACE ( 'NONE', ( #205 ), #123, .F. ) ;
#167 = AXIS2_PLACEMENT_3D ( 'NONE', #194, #12, #75 ) ;
#168 = ADVANCED_FACE ( 'NONE', ( #145 ), #195, .F. ) ;
#169 = VECTOR ( 'NONE', #203, 1000.000000000000000 ) ;
#170 = PRESENTATION_STYLE_ASSIGNMENT (( #63 ) ) ;
#171 = VECTOR ( 'NONE', #76, 1000.000000000000000 ) ;
#172 = CARTESIAN_POINT ( 'NONE',  ( 57.22161991095399713, -20.14265876703457536, 4.163336342344337027E-14 ) ) ;
#173 = DIRECTION ( 'NONE',  ( -0.5773502691896245098, 0.000000000000000000, -0.8164965809277269226 ) ) ;
#174 = PLANE ( 'NONE',  #41 ) ;
#175 = DIRECTION ( 'NONE',  ( 0.8164965809277242581, -2.831068712794149967E-15, 0.5773502691896282846 ) ) ;
#176 = PLANE ( 'NONE',  #24 ) ;
#177 =( NAMED_UNIT ( * ) SI_UNIT ( $, .STERADIAN. ) SOLID_ANGLE_UNIT ( ) );
#178 =( LENGTH_UNIT ( ) NAMED_UNIT ( * ) SI_UNIT ( .MILLI., .METRE. ) );
#179 = ORIENTED_EDGE ( 'NONE', *, *, #97, .T. ) ;
#180 = ORIENTED_EDGE ( 'NONE', *, *, #33, .F. ) ;
#181 = EDGE_CURVE ( 'NONE', #1, #134, #121, .T. ) ;
#182 = PRESENTATION_LAYER_ASSIGNMENT (  '', '', ( #136 ) ) ;
#183 = VERTEX_POINT ( 'NONE', #115 ) ;
#184 = PRODUCT ( 'ï¿½ï¿½ï¿½ï¿½', 'ï¿½ï¿½ï¿½ï¿½', '', ( #161 ) ) ;
#185 = EDGE_CURVE ( 'NONE', #66, #199, #25, .T. ) ;
#186 = AXIS2_PLACEMENT_3D ( 'NONE', #212, #64, #15 ) ;
#187 = DIRECTION ( 'NONE',  ( -0.8164965809277220377, -2.636779683484746784E-15, -0.5773502691896315042 ) ) ;
#188 = DIRECTION ( 'NONE',  ( 0.5000000000000078826, -0.4999999999999947264, -0.7071067811865456854 ) ) ;
#189 = CARTESIAN_POINT ( 'NONE',  ( 17.22161991095392253, 19.85734123296543885, -3.201084296280879721E-15 ) ) ;
#190 = LINE ( 'NONE', #112, #171 ) ;
#191 = ORIENTED_EDGE ( 'NONE', *, *, #14, .F. ) ;
#192 = CARTESIAN_POINT ( 'NONE',  ( 17.22161991095391542, 19.85734123296542819, -3.160958966187508788E-15 ) ) ;
#193 =( GEOMETRIC_REPRESENTATION_CONTEXT ( 3 ) GLOBAL_UNCERTAINTY_ASSIGNED_CONTEXT ( ( #96 ) ) GLOBAL_UNIT_ASSIGNED_CONTEXT ( ( #30, #106, #88 ) ) REPRESENTATION_CONTEXT ( 'NONE', 'WORKASPACE' ) );
#194 = CARTESIAN_POINT ( 'NONE',  ( 18.53948057195956167, 7.058400631323585195, 18.10043538284925191 ) ) ;
#195 = PLANE ( 'NONE',  #167 ) ;
#196 = ORIENTED_EDGE ( 'NONE', *, *, #70, .T. ) ;
#197 = PRODUCT_DEFINITION_CONTEXT ( 'detailed design', #132, 'design' ) ;
#198 = ORIENTED_EDGE ( 'NONE', *, *, #39, .F. ) ;
#199 = VERTEX_POINT ( 'NONE', #125 ) ;
#200 = AXIS2_PLACEMENT_3D ( 'NONE', #45, #159, #9 ) ;
#201 = ADVANCED_FACE ( 'NONE', ( #128 ), #6, .F. ) ;
#202 = DIRECTION ( 'NONE',  ( 0.2886751345948108116, 0.8660254037844417052, -0.4082482904638580212 ) ) ;
#203 = DIRECTION ( 'NONE',  ( 0.5000000000000038858, 0.4999999999999972800, 0.7071067811865466846 ) ) ;
#204 = DIRECTION ( 'NONE',  ( 1.000000000000000000, -2.418619861985974555E-15, 1.771554242190112154E-15 ) ) ;
#205 = FACE_OUTER_BOUND ( 'NONE', #82, .T. ) ;
#206 = ORIENTED_EDGE ( 'NONE', *, *, #129, .T. ) ;
#207 =( NAMED_UNIT ( * ) SI_UNIT ( $, .STERADIAN. ) SOLID_ANGLE_UNIT ( ) );
#208 = DIRECTION ( 'NONE',  ( -2.563950248511412505E-16, 0.5773502691896245098, 0.8164965809277269226 ) ) ;
#209 = CARTESIAN_POINT ( 'NONE',  ( 57.22161991095369871, 19.85734123296551346, 2.879640970121499777E-13 ) ) ;
#210 = SURFACE_STYLE_FILL_AREA ( #163 ) ;
#211 = CARTESIAN_POINT ( 'NONE',  ( 57.22161991095393319, -20.14265876703462865, 4.176049233053494380E-14 ) ) ;
#212 = CARTESIAN_POINT ( 'NONE',  ( 0.000000000000000000, 0.000000000000000000, 0.000000000000000000 ) ) ;
#213 = DIRECTION ( 'NONE',  ( -0.5000000000000048850, 0.5000000000000024425, -0.7071067811865423547 ) ) ;
#214 = EDGE_CURVE ( 'NONE', #1, #199, #32, .T. ) ;
ENDSEC;
END-ISO-10303-21;
