ISO-10303-21;
HEADER;
FILE_DESCRIPTION (( 'STEP AP203' ),
    '1' );
FILE_NAME ('ÕýÁùÀâÖù.STEP',
    '2023-08-27T07:20:20',
    ( '' ),
    ( '' ),
    'SwSTEP 2.0',
    'SolidWorks 2020',
    '' );
FILE_SCHEMA (( 'CONFIG_CONTROL_DESIGN' ));
ENDSEC;

DATA;
#1 = APPROVAL ( #73, 'Î´Ö¸¶¨' ) ;
#2 = EDGE_CURVE ( 'NONE', #268, #223, #149, .T. ) ;
#3 = CARTESIAN_POINT ( 'NONE',  ( -1.646057727876923948, 24.19635487571562393, 40.00000000000000000 ) ) ;
#4 = ORIENTED_EDGE ( 'NONE', *, *, #243, .T. ) ;
#5 = LINE ( 'NONE', #61, #88 ) ;
#6 = DIRECTION ( 'NONE',  ( -0.4999999999999997780, -0.8660254037844387076, 0.000000000000000000 ) ) ;
#7 = EDGE_LOOP ( 'NONE', ( #103, #256, #200, #16 ) ) ;
#8 = DIRECTION ( 'NONE',  ( -0.8660254037844385966, -0.5000000000000003331, 0.000000000000000000 ) ) ;
#9 = ADVANCED_FACE ( 'NONE', ( #32 ), #54, .F. ) ;
#10 = VERTEX_POINT ( 'NONE', #98 ) ;
#11 = DIRECTION ( 'NONE',  ( 0.8660254037844385966, 0.5000000000000003331, -0.000000000000000000 ) ) ;
#12 = CARTESIAN_POINT ( 'NONE',  ( 9.900947655915596002, 4.196354875715623933, 40.00000000000000000 ) ) ;
#13 = EDGE_LOOP ( 'NONE', ( #80, #180, #62, #124 ) ) ;
#14 = PERSON_AND_ORGANIZATION_ROLE ( 'creator' ) ;
#15 = PLANE ( 'NONE',  #280 ) ;
#16 = ORIENTED_EDGE ( 'NONE', *, *, #171, .T. ) ;
#17 = PRODUCT_DEFINITION_FORMATION_WITH_SPECIFIED_SOURCE ( 'ÈÎºÎ', '', #164, .NOT_KNOWN. ) ;
#18 = PERSON_AND_ORGANIZATION ( #290, #189 ) ;
#19 = EDGE_CURVE ( 'NONE', #198, #182, #267, .T. ) ;
#20 = CARTESIAN_POINT ( 'NONE',  ( -24.74006849546195141, -15.80364512428438672, 40.00000000000000000 ) ) ;
#21 =( NAMED_UNIT ( * ) SI_UNIT ( $, .STERADIAN. ) SOLID_ANGLE_UNIT ( ) );
#22 = DIRECTION ( 'NONE',  ( 1.000000000000000000, 0.000000000000000000, 0.000000000000000000 ) ) ;
#23 = AXIS2_PLACEMENT_3D ( 'NONE', #20, #166, #142 ) ;
#24 = EDGE_CURVE ( 'NONE', #182, #268, #78, .T. ) ;
#25 = VECTOR ( 'NONE', #216, 1000.000000000000000 ) ;
#26 = SHAPE_DEFINITION_REPRESENTATION ( #201, #188 ) ;
#27 = PRODUCT_RELATED_PRODUCT_CATEGORY ( 'detail', '', ( #164 ) ) ;
#28 = DIRECTION ( 'NONE',  ( 0.5000000000000002220, -0.8660254037844384856, 0.000000000000000000 ) ) ;
#29 = VECTOR ( 'NONE', #197, 1000.000000000000000 ) ;
#30 = LINE ( 'NONE', #173, #102 ) ;
#31 = FACE_OUTER_BOUND ( 'NONE', #150, .T. ) ;
#32 = FACE_OUTER_BOUND ( 'NONE', #7, .T. ) ;
#33 = ORIENTED_EDGE ( 'NONE', *, *, #99, .F. ) ;
#34 = LINE ( 'NONE', #260, #206 ) ;
#35 = ORIENTED_EDGE ( 'NONE', *, *, #2, .F. ) ;
#36 = LOCAL_TIME ( 15, 20, 20.00000000000000000, #94 ) ;
#37 = CARTESIAN_POINT ( 'NONE',  ( -1.646057727876923948, 24.19635487571562393, 0.000000000000000000 ) ) ;
#38 = EDGE_LOOP ( 'NONE', ( #156, #85, #250, #220 ) ) ;
#39 = ORIENTED_EDGE ( 'NONE', *, *, #71, .T. ) ;
#40 = PLANE ( 'NONE',  #23 ) ;
#41 = VECTOR ( 'NONE', #264, 1000.000000000000000 ) ;
#42 = CALENDAR_DATE ( 2023, 27, 8 ) ;
#43 = FACE_OUTER_BOUND ( 'NONE', #175, .T. ) ;
#44 = MECHANICAL_CONTEXT ( 'NONE', #72, 'mechanical' ) ;
#45 = PLANE ( 'NONE',  #282 ) ;
#46 = UNCERTAINTY_MEASURE_WITH_UNIT (LENGTH_MEASURE( 1.000000000000000082E-05 ), #90, 'distance_accuracy_value', 'NONE');
#47 = VECTOR ( 'NONE', #261, 1000.000000000000000 ) ;
#48 = ADVANCED_FACE ( 'NONE', ( #162 ), #45, .T. ) ;
#49 = AXIS2_PLACEMENT_3D ( 'NONE', #271, #134, #22 ) ;
#50 = PERSON_AND_ORGANIZATION ( #290, #189 ) ;
#51 = EDGE_CURVE ( 'NONE', #198, #10, #228, .T. ) ;
#52 = CARTESIAN_POINT ( 'NONE',  ( -36.28707387925447136, 4.196354875715616828, 0.000000000000000000 ) ) ;
#53 = PLANE ( 'NONE',  #119 ) ;
#54 = PLANE ( 'NONE',  #111 ) ;
#55 = DIRECTION ( 'NONE',  ( -0.5000000000000000000, -0.8660254037844385966, 0.000000000000000000 ) ) ;
#56 = CARTESIAN_POINT ( 'NONE',  ( 9.900947655915596002, 4.196354875715623933, 40.00000000000000000 ) ) ;
#57 = EDGE_LOOP ( 'NONE', ( #229, #270, #87, #35, #289, #109 ) ) ;
#58 = CC_DESIGN_PERSON_AND_ORGANIZATION_ASSIGNMENT ( #110, #204, ( #17 ) ) ;
#59 = DIRECTION ( 'NONE',  ( -0.5000000000000002220, 0.8660254037844384856, 0.000000000000000000 ) ) ;
#60 = VERTEX_POINT ( 'NONE', #283 ) ;
#61 = CARTESIAN_POINT ( 'NONE',  ( -36.28707387925447136, 4.196354875715616828, 40.00000000000000000 ) ) ;
#62 = ORIENTED_EDGE ( 'NONE', *, *, #71, .F. ) ;
#63 = AXIS2_PLACEMENT_3D ( 'NONE', #56, #8, #28 ) ;
#64 = CALENDAR_DATE ( 2023, 27, 8 ) ;
#65 = ORIENTED_EDGE ( 'NONE', *, *, #243, .F. ) ;
#66 = DESIGN_CONTEXT ( 'detailed design', #137, 'design' ) ;
#67 = PERSON_AND_ORGANIZATION_ROLE ( 'creator' ) ;
#68 = CC_DESIGN_PERSON_AND_ORGANIZATION_ASSIGNMENT ( #157, #14, ( #17 ) ) ;
#69 = MANIFOLD_SOLID_BREP ( 'Í¹Ì¨-À­Éì1', #238 ) ;
#70 = CC_DESIGN_APPROVAL ( #193, ( #262 ) ) ;
#71 = EDGE_CURVE ( 'NONE', #127, #60, #30, .T. ) ;
#72 = APPLICATION_CONTEXT ( 'configuration controlled 3d designs of mechanical parts and assemblies' ) ;
#73 = APPROVAL_STATUS ( 'not_yet_approved' ) ;
#74 = PERSON_AND_ORGANIZATION ( #290, #189 ) ;
#75 = CARTESIAN_POINT ( 'NONE',  ( -24.74006849546195497, 24.19635487571562038, 40.00000000000000000 ) ) ;
#76 = DIRECTION ( 'NONE',  ( 0.000000000000000000, 0.000000000000000000, 1.000000000000000000 ) ) ;
#77 = DIRECTION ( 'NONE',  ( 0.8660254037844387076, -0.5000000000000001110, 0.000000000000000000 ) ) ;
#78 = LINE ( 'NONE', #101, #115 ) ;
#79 = AXIS2_PLACEMENT_3D ( 'NONE', #227, #11, #59 ) ;
#80 = ORIENTED_EDGE ( 'NONE', *, *, #186, .T. ) ;
#81 = CARTESIAN_POINT ( 'NONE',  ( -36.28707387925447136, 4.196354875715616828, 40.00000000000000000 ) ) ;
#82 = DIRECTION ( 'NONE',  ( -1.000000000000000000, -1.502314598737159524E-16, 0.000000000000000000 ) ) ;
#83 = ORIENTED_EDGE ( 'NONE', *, *, #113, .T. ) ;
#84 = CARTESIAN_POINT ( 'NONE',  ( -1.646057727876919508, -15.80364512428438672, 40.00000000000000000 ) ) ;
#85 = ORIENTED_EDGE ( 'NONE', *, *, #279, .F. ) ;
#86 = DIRECTION ( 'NONE',  ( -0.000000000000000000, -0.000000000000000000, -1.000000000000000000 ) ) ;
#87 = ORIENTED_EDGE ( 'NONE', *, *, #186, .F. ) ;
#88 = VECTOR ( 'NONE', #100, 1000.000000000000000 ) ;
#89 = PERSON_AND_ORGANIZATION ( #290, #189 ) ;
#90 =( LENGTH_UNIT ( ) NAMED_UNIT ( * ) SI_UNIT ( .MILLI., .METRE. ) );
#91 = DIRECTION ( 'NONE',  ( -0.5000000000000002220, 0.8660254037844384856, 0.000000000000000000 ) ) ;
#92 = LOCAL_TIME ( 15, 20, 20.00000000000000000, #251 ) ;
#93 = CC_DESIGN_DATE_AND_TIME_ASSIGNMENT ( #253, #135, ( #262 ) ) ;
#94 = COORDINATED_UNIVERSAL_TIME_OFFSET ( 8, 0, .AHEAD. ) ;
#95 = APPROVAL_PERSON_ORGANIZATION ( #18, #193, #276 ) ;
#96 = CARTESIAN_POINT ( 'NONE',  ( -1.646057727876923948, 24.19635487571562393, 40.00000000000000000 ) ) ;
#97 = CARTESIAN_POINT ( 'NONE',  ( -1.646057727876923948, 24.19635487571562393, 40.00000000000000000 ) ) ;
#98 = CARTESIAN_POINT ( 'NONE',  ( -1.646057727876923948, 24.19635487571562393, 40.00000000000000000 ) ) ;
#99 = EDGE_CURVE ( 'NONE', #226, #152, #233, .T. ) ;
#100 = DIRECTION ( 'NONE',  ( -0.000000000000000000, -0.000000000000000000, -1.000000000000000000 ) ) ;
#101 = CARTESIAN_POINT ( 'NONE',  ( 9.900947655915596002, 4.196354875715623933, 0.000000000000000000 ) ) ;
#102 = VECTOR ( 'NONE', #55, 1000.000000000000227 ) ;
#103 = ORIENTED_EDGE ( 'NONE', *, *, #281, .T. ) ;
#104 = CARTESIAN_POINT ( 'NONE',  ( -36.28707387925447136, 4.196354875715616828, 0.000000000000000000 ) ) ;
#105 = ORIENTED_EDGE ( 'NONE', *, *, #212, .F. ) ;
#106 = ADVANCED_FACE ( 'NONE', ( #132 ), #15, .F. ) ;
#107 = DIRECTION ( 'NONE',  ( 1.000000000000000000, 1.502314598737159524E-16, 0.000000000000000000 ) ) ;
#108 = DIRECTION ( 'NONE',  ( -0.5000000000000002220, 0.8660254037844384856, 0.000000000000000000 ) ) ;
#109 = ORIENTED_EDGE ( 'NONE', *, *, #281, .F. ) ;
#110 = PERSON_AND_ORGANIZATION ( #290, #189 ) ;
#111 = AXIS2_PLACEMENT_3D ( 'NONE', #123, #146, #6 ) ;
#112 = ORIENTED_EDGE ( 'NONE', *, *, #2, .T. ) ;
#113 = EDGE_CURVE ( 'NONE', #152, #198, #302, .T. ) ;
#114 = APPROVAL_DATE_TIME ( #208, #193 ) ;
#115 = VECTOR ( 'NONE', #91, 1000.000000000000114 ) ;
#116 = CC_DESIGN_PERSON_AND_ORGANIZATION_ASSIGNMENT ( #89, #161, ( #164 ) ) ;
#117 = APPROVAL_DATE_TIME ( #169, #1 ) ;
#118 = CARTESIAN_POINT ( 'NONE',  ( -24.74006849546195141, -15.80364512428438672, 0.000000000000000000 ) ) ;
#119 = AXIS2_PLACEMENT_3D ( 'NONE', #96, #285, #107 ) ;
#120 = APPROVAL_ROLE ( '' ) ;
#121 = LINE ( 'NONE', #284, #176 ) ;
#122 = LINE ( 'NONE', #97, #29 ) ;
#123 = CARTESIAN_POINT ( 'NONE',  ( -1.646057727876919508, -15.80364512428438672, 40.00000000000000000 ) ) ;
#124 = ORIENTED_EDGE ( 'NONE', *, *, #190, .T. ) ;
#125 = PLANE ( 'NONE',  #192 ) ;
#126 = CC_DESIGN_APPROVAL ( #136, ( #17 ) ) ;
#127 = VERTEX_POINT ( 'NONE', #255 ) ;
#128 = FACE_OUTER_BOUND ( 'NONE', #38, .T. ) ;
#129 = DIRECTION ( 'NONE',  ( 1.000000000000000000, 0.000000000000000000, -0.000000000000000000 ) ) ;
#130 = ORIENTED_EDGE ( 'NONE', *, *, #51, .F. ) ;
#131 = APPLICATION_PROTOCOL_DEFINITION ( 'international standard', 'config_control_design', 1994, #72 ) ;
#132 = FACE_OUTER_BOUND ( 'NONE', #57, .T. ) ;
#133 = ORIENTED_EDGE ( 'NONE', *, *, #298, .T. ) ;
#134 = DIRECTION ( 'NONE',  ( 0.000000000000000000, 0.000000000000000000, 1.000000000000000000 ) ) ;
#135 = DATE_TIME_ROLE ( 'creation_date' ) ;
#136 = APPROVAL ( #138, 'Î´Ö¸¶¨' ) ;
#137 = APPLICATION_CONTEXT ( 'configuration controlled 3d designs of mechanical parts and assemblies' ) ;
#138 = APPROVAL_STATUS ( 'not_yet_approved' ) ;
#139 = CC_DESIGN_DATE_AND_TIME_ASSIGNMENT ( #239, #167, ( #170 ) ) ;
#140 = CC_DESIGN_APPROVAL ( #1, ( #170 ) ) ;
#141 = VECTOR ( 'NONE', #86, 1000.000000000000000 ) ;
#142 = DIRECTION ( 'NONE',  ( 0.000000000000000000, -0.000000000000000000, 1.000000000000000000 ) ) ;
#143 = DIRECTION ( 'NONE',  ( 0.4999999999999997780, 0.8660254037844387076, 0.000000000000000000 ) ) ;
#144 = ADVANCED_FACE ( 'NONE', ( #43 ), #40, .F. ) ;
#145 = DIRECTION ( 'NONE',  ( 0.5000000000000001110, -0.8660254037844384856, 0.000000000000000000 ) ) ;
#146 = DIRECTION ( 'NONE',  ( -0.8660254037844388186, 0.4999999999999998335, 0.000000000000000000 ) ) ;
#147 =( GEOMETRIC_REPRESENTATION_CONTEXT ( 3 ) GLOBAL_UNCERTAINTY_ASSIGNED_CONTEXT ( ( #46 ) ) GLOBAL_UNIT_ASSIGNED_CONTEXT ( ( #90, #297, #21 ) ) REPRESENTATION_CONTEXT ( 'NONE', 'WORKASPACE' ) );
#148 = CARTESIAN_POINT ( 'NONE',  ( -1.646057727876919508, -15.80364512428438672, 0.000000000000000000 ) ) ;
#149 = LINE ( 'NONE', #196, #184 ) ;
#150 = EDGE_LOOP ( 'NONE', ( #158, #65, #130, #177 ) ) ;
#151 = CARTESIAN_POINT ( 'NONE',  ( -24.74006849546195141, -15.80364512428438672, 40.00000000000000000 ) ) ;
#152 = VERTEX_POINT ( 'NONE', #84 ) ;
#153 = CARTESIAN_POINT ( 'NONE',  ( 9.900947655915596002, 4.196354875715623933, 40.00000000000000000 ) ) ;
#154 = CC_DESIGN_PERSON_AND_ORGANIZATION_ASSIGNMENT ( #165, #67, ( #262 ) ) ;
#155 = VECTOR ( 'NONE', #108, 1000.000000000000114 ) ;
#156 = ORIENTED_EDGE ( 'NONE', *, *, #259, .T. ) ;
#157 = PERSON_AND_ORGANIZATION ( #290, #189 ) ;
#158 = ORIENTED_EDGE ( 'NONE', *, *, #24, .T. ) ;
#159 = APPLICATION_PROTOCOL_DEFINITION ( 'international standard', 'config_control_design', 1994, #137 ) ;
#160 = CARTESIAN_POINT ( 'NONE',  ( -24.74006849546195141, -15.80364512428438672, 40.00000000000000000 ) ) ;
#161 = PERSON_AND_ORGANIZATION_ROLE ( 'design_owner' ) ;
#162 = FACE_OUTER_BOUND ( 'NONE', #203, .T. ) ;
#163 = VECTOR ( 'NONE', #199, 1000.000000000000000 ) ;
#164 = PRODUCT ( 'ÕýÁùÀâÖù', 'ÕýÁùÀâÖù', '', ( #44 ) ) ;
#165 = PERSON_AND_ORGANIZATION ( #290, #189 ) ;
#166 = DIRECTION ( 'NONE',  ( 0.000000000000000000, 1.000000000000000000, 0.000000000000000000 ) ) ;
#167 = DATE_TIME_ROLE ( 'classification_date' ) ;
#168 = EDGE_CURVE ( 'NONE', #60, #226, #195, .T. ) ;
#169 = DATE_AND_TIME ( #214, #272 ) ;
#170 = SECURITY_CLASSIFICATION ( '', '', #217 ) ;
#171 = EDGE_CURVE ( 'NONE', #152, #265, #121, .T. ) ;
#172 = LINE ( 'NONE', #104, #235 ) ;
#173 = CARTESIAN_POINT ( 'NONE',  ( -24.74006849546195497, 24.19635487571562038, 40.00000000000000000 ) ) ;
#174 = DIRECTION ( 'NONE',  ( -0.000000000000000000, -0.000000000000000000, -1.000000000000000000 ) ) ;
#175 = EDGE_LOOP ( 'NONE', ( #133, #234, #33, #249 ) ) ;
#176 = VECTOR ( 'NONE', #174, 1000.000000000000000 ) ;
#177 = ORIENTED_EDGE ( 'NONE', *, *, #19, .T. ) ;
#178 = FACE_OUTER_BOUND ( 'NONE', #273, .T. ) ;
#179 = ORIENTED_EDGE ( 'NONE', *, *, #212, .T. ) ;
#180 = ORIENTED_EDGE ( 'NONE', *, *, #230, .F. ) ;
#181 = FACE_OUTER_BOUND ( 'NONE', #13, .T. ) ;
#182 = VERTEX_POINT ( 'NONE', #269 ) ;
#183 = LINE ( 'NONE', #148, #252 ) ;
#184 = VECTOR ( 'NONE', #82, 1000.000000000000000 ) ;
#185 = VERTEX_POINT ( 'NONE', #52 ) ;
#186 = EDGE_CURVE ( 'NONE', #223, #185, #34, .T. ) ;
#187 = DIRECTION ( 'NONE',  ( 1.000000000000000000, 0.000000000000000000, 0.000000000000000000 ) ) ;
#188 = ADVANCED_BREP_SHAPE_REPRESENTATION ( 'ÕýÁùÀâÖù', ( #69, #49 ), #147 ) ;
#189 = ORGANIZATION ( 'Î´Ö¸¶¨', 'Î´Ö¸¶¨', '' ) ;
#190 = EDGE_CURVE ( 'NONE', #127, #223, #218, .T. ) ;
#191 = CALENDAR_DATE ( 2023, 27, 8 ) ;
#192 = AXIS2_PLACEMENT_3D ( 'NONE', #221, #77, #240 ) ;
#193 = APPROVAL ( #274, 'Î´Ö¸¶¨' ) ;
#194 = CARTESIAN_POINT ( 'NONE',  ( -24.74006849546195497, 24.19635487571562038, 0.000000000000000000 ) ) ;
#195 = LINE ( 'NONE', #81, #287 ) ;
#196 = CARTESIAN_POINT ( 'NONE',  ( -1.646057727876923948, 24.19635487571562393, 0.000000000000000000 ) ) ;
#197 = DIRECTION ( 'NONE',  ( -0.000000000000000000, -0.000000000000000000, -1.000000000000000000 ) ) ;
#198 = VERTEX_POINT ( 'NONE', #153 ) ;
#199 = DIRECTION ( 'NONE',  ( -1.000000000000000000, -1.502314598737159524E-16, 0.000000000000000000 ) ) ;
#200 = ORIENTED_EDGE ( 'NONE', *, *, #113, .F. ) ;
#201 = PRODUCT_DEFINITION_SHAPE ( 'NONE', 'NONE',  #262 ) ;
#202 = PLANE ( 'NONE',  #63 ) ;
#203 = EDGE_LOOP ( 'NONE', ( #247, #83, #219, #179, #39, #292 ) ) ;
#204 = PERSON_AND_ORGANIZATION_ROLE ( 'design_supplier' ) ;
#205 = ADVANCED_FACE ( 'NONE', ( #181 ), #125, .F. ) ;
#206 = VECTOR ( 'NONE', #246, 1000.000000000000227 ) ;
#207 = CARTESIAN_POINT ( 'NONE',  ( 0.000000000000000000, 0.000000000000000000, 0.000000000000000000 ) ) ;
#208 = DATE_AND_TIME ( #295, #225 ) ;
#209 = COORDINATED_UNIVERSAL_TIME_OFFSET ( 8, 0, .AHEAD. ) ;
#210 = PERSON_AND_ORGANIZATION ( #290, #189 ) ;
#211 = APPROVAL_PERSON_ORGANIZATION ( #50, #1, #120 ) ;
#212 = EDGE_CURVE ( 'NONE', #10, #127, #224, .T. ) ;
#213 = CARTESIAN_POINT ( 'NONE',  ( -1.646057727876919508, -15.80364512428438672, 40.00000000000000000 ) ) ;
#214 = CALENDAR_DATE ( 2023, 27, 8 ) ;
#215 = CC_DESIGN_SECURITY_CLASSIFICATION ( #170, ( #17 ) ) ;
#216 = DIRECTION ( 'NONE',  ( 1.000000000000000000, 0.000000000000000000, 0.000000000000000000 ) ) ;
#217 = SECURITY_CLASSIFICATION_LEVEL ( 'unclassified' ) ;
#218 = LINE ( 'NONE', #75, #41 ) ;
#219 = ORIENTED_EDGE ( 'NONE', *, *, #51, .T. ) ;
#220 = ORIENTED_EDGE ( 'NONE', *, *, #230, .T. ) ;
#221 = CARTESIAN_POINT ( 'NONE',  ( -24.74006849546195497, 24.19635487571562038, 40.00000000000000000 ) ) ;
#222 = ADVANCED_FACE ( 'NONE', ( #31 ), #202, .F. ) ;
#223 = VERTEX_POINT ( 'NONE', #194 ) ;
#224 = LINE ( 'NONE', #3, #163 ) ;
#225 = LOCAL_TIME ( 15, 20, 20.00000000000000000, #209 ) ;
#226 = VERTEX_POINT ( 'NONE', #266 ) ;
#227 = CARTESIAN_POINT ( 'NONE',  ( -36.28707387925447136, 4.196354875715616828, 40.00000000000000000 ) ) ;
#228 = LINE ( 'NONE', #12, #155 ) ;
#229 = ORIENTED_EDGE ( 'NONE', *, *, #298, .F. ) ;
#230 = EDGE_CURVE ( 'NONE', #60, #185, #5, .T. ) ;
#231 = COORDINATED_UNIVERSAL_TIME_OFFSET ( 8, 0, .AHEAD. ) ;
#232 = CARTESIAN_POINT ( 'NONE',  ( 0.000000000000000000, 0.000000000000000000, 40.00000000000000000 ) ) ;
#233 = LINE ( 'NONE', #160, #300 ) ;
#234 = ORIENTED_EDGE ( 'NONE', *, *, #171, .F. ) ;
#235 = VECTOR ( 'NONE', #288, 1000.000000000000227 ) ;
#236 = DATE_AND_TIME ( #64, #263 ) ;
#237 = APPROVAL_ROLE ( '' ) ;
#238 = CLOSED_SHELL ( 'NONE', ( #144, #9, #222, #254, #205, #277, #48, #106 ) ) ;
#239 = DATE_AND_TIME ( #191, #36 ) ;
#240 = DIRECTION ( 'NONE',  ( 0.5000000000000000000, 0.8660254037844385966, 0.000000000000000000 ) ) ;
#241 = COORDINATED_UNIVERSAL_TIME_OFFSET ( 8, 0, .AHEAD. ) ;
#242 = LINE ( 'NONE', #151, #141 ) ;
#243 = EDGE_CURVE ( 'NONE', #10, #268, #122, .T. ) ;
#244 = LINE ( 'NONE', #118, #25 ) ;
#245 = VERTEX_POINT ( 'NONE', #293 ) ;
#246 = DIRECTION ( 'NONE',  ( -0.5000000000000000000, -0.8660254037844385966, 0.000000000000000000 ) ) ;
#247 = ORIENTED_EDGE ( 'NONE', *, *, #99, .T. ) ;
#248 = CARTESIAN_POINT ( 'NONE',  ( -1.646057727876919508, -15.80364512428438672, 0.000000000000000000 ) ) ;
#249 = ORIENTED_EDGE ( 'NONE', *, *, #279, .T. ) ;
#250 = ORIENTED_EDGE ( 'NONE', *, *, #168, .F. ) ;
#251 = COORDINATED_UNIVERSAL_TIME_OFFSET ( 8, 0, .AHEAD. ) ;
#252 = VECTOR ( 'NONE', #143, 1000.000000000000114 ) ;
#253 = DATE_AND_TIME ( #42, #92 ) ;
#254 = ADVANCED_FACE ( 'NONE', ( #178 ), #53, .F. ) ;
#255 = CARTESIAN_POINT ( 'NONE',  ( -24.74006849546195497, 24.19635487571562038, 40.00000000000000000 ) ) ;
#256 = ORIENTED_EDGE ( 'NONE', *, *, #19, .F. ) ;
#257 = APPROVAL_PERSON_ORGANIZATION ( #210, #136, #237 ) ;
#258 = PERSON_AND_ORGANIZATION_ROLE ( 'classification_officer' ) ;
#259 = EDGE_CURVE ( 'NONE', #185, #245, #172, .T. ) ;
#260 = CARTESIAN_POINT ( 'NONE',  ( -24.74006849546195497, 24.19635487571562038, 0.000000000000000000 ) ) ;
#261 = DIRECTION ( 'NONE',  ( -0.000000000000000000, -0.000000000000000000, -1.000000000000000000 ) ) ;
#262 = PRODUCT_DEFINITION ( 'Î´Öª', '', #17, #66 ) ;
#263 = LOCAL_TIME ( 15, 20, 20.00000000000000000, #231 ) ;
#264 = DIRECTION ( 'NONE',  ( -0.000000000000000000, -0.000000000000000000, -1.000000000000000000 ) ) ;
#265 = VERTEX_POINT ( 'NONE', #248 ) ;
#266 = CARTESIAN_POINT ( 'NONE',  ( -24.74006849546195141, -15.80364512428438672, 40.00000000000000000 ) ) ;
#267 = LINE ( 'NONE', #286, #47 ) ;
#268 = VERTEX_POINT ( 'NONE', #37 ) ;
#269 = CARTESIAN_POINT ( 'NONE',  ( 9.900947655915596002, 4.196354875715623933, 0.000000000000000000 ) ) ;
#270 = ORIENTED_EDGE ( 'NONE', *, *, #259, .F. ) ;
#271 = CARTESIAN_POINT ( 'NONE',  ( 0.000000000000000000, 0.000000000000000000, 0.000000000000000000 ) ) ;
#272 = LOCAL_TIME ( 15, 20, 20.00000000000000000, #241 ) ;
#273 = EDGE_LOOP ( 'NONE', ( #112, #294, #105, #4 ) ) ;
#274 = APPROVAL_STATUS ( 'not_yet_approved' ) ;
#275 = DIRECTION ( 'NONE',  ( 1.000000000000000000, 0.000000000000000000, -0.000000000000000000 ) ) ;
#276 = APPROVAL_ROLE ( '' ) ;
#277 = ADVANCED_FACE ( 'NONE', ( #128 ), #291, .F. ) ;
#278 = VECTOR ( 'NONE', #303, 1000.000000000000114 ) ;
#279 = EDGE_CURVE ( 'NONE', #226, #245, #242, .T. ) ;
#280 = AXIS2_PLACEMENT_3D ( 'NONE', #207, #296, #275 ) ;
#281 = EDGE_CURVE ( 'NONE', #265, #182, #183, .T. ) ;
#282 = AXIS2_PLACEMENT_3D ( 'NONE', #232, #76, #129 ) ;
#283 = CARTESIAN_POINT ( 'NONE',  ( -36.28707387925447136, 4.196354875715616828, 40.00000000000000000 ) ) ;
#284 = CARTESIAN_POINT ( 'NONE',  ( -1.646057727876919508, -15.80364512428438672, 40.00000000000000000 ) ) ;
#285 = DIRECTION ( 'NONE',  ( 1.502314598737159524E-16, -1.000000000000000000, 0.000000000000000000 ) ) ;
#286 = CARTESIAN_POINT ( 'NONE',  ( 9.900947655915596002, 4.196354875715623933, 40.00000000000000000 ) ) ;
#287 = VECTOR ( 'NONE', #145, 1000.000000000000227 ) ;
#288 = DIRECTION ( 'NONE',  ( 0.5000000000000001110, -0.8660254037844384856, 0.000000000000000000 ) ) ;
#289 = ORIENTED_EDGE ( 'NONE', *, *, #24, .F. ) ;
#290 = PERSON ( 'Î´Ö¸¶¨', 'Î´Ö¸¶¨', 'Î´Ö¸¶¨', ('Î´Ö¸¶¨'), ('Î´Ö¸¶¨'), ('Î´Ö¸¶¨') ) ;
#291 = PLANE ( 'NONE',  #79 ) ;
#292 = ORIENTED_EDGE ( 'NONE', *, *, #168, .T. ) ;
#293 = CARTESIAN_POINT ( 'NONE',  ( -24.74006849546195141, -15.80364512428438672, 0.000000000000000000 ) ) ;
#294 = ORIENTED_EDGE ( 'NONE', *, *, #190, .F. ) ;
#295 = CALENDAR_DATE ( 2023, 27, 8 ) ;
#296 = DIRECTION ( 'NONE',  ( 0.000000000000000000, 0.000000000000000000, 1.000000000000000000 ) ) ;
#297 =( NAMED_UNIT ( * ) PLANE_ANGLE_UNIT ( ) SI_UNIT ( $, .RADIAN. ) );
#298 = EDGE_CURVE ( 'NONE', #245, #265, #244, .T. ) ;
#299 = APPROVAL_DATE_TIME ( #236, #136 ) ;
#300 = VECTOR ( 'NONE', #187, 1000.000000000000000 ) ;
#301 = CC_DESIGN_PERSON_AND_ORGANIZATION_ASSIGNMENT ( #74, #258, ( #170 ) ) ;
#302 = LINE ( 'NONE', #213, #278 ) ;
#303 = DIRECTION ( 'NONE',  ( 0.4999999999999997780, 0.8660254037844387076, 0.000000000000000000 ) ) ;
ENDSEC;
END-ISO-10303-21;
