ISO-10303-21;
HEADER;
FILE_DESCRIPTION (( 'STEP AP203' ),
    '1' );
FILE_NAME ('³¤·½Ìå.STEP',
    '2023-08-27T07:20:43',
    ( '' ),
    ( '' ),
    'SwSTEP 2.0',
    'SolidWorks 2020',
    '' );
FILE_SCHEMA (( 'CONFIG_CONTROL_DESIGN' ));
ENDSEC;

DATA;
#1 = CC_DESIGN_SECURITY_CLASSIFICATION ( #180, ( #106 ) ) ;
#2 = CLOSED_SHELL ( 'NONE', ( #235, #197, #32, #157, #90, #230 ) ) ;
#3 = CC_DESIGN_DATE_AND_TIME_ASSIGNMENT ( #169, #150, ( #180 ) ) ;
#4 = PERSON ( 'Î´Ö¸¶¨', 'Î´Ö¸¶¨', 'Î´Ö¸¶¨', ('Î´Ö¸¶¨'), ('Î´Ö¸¶¨'), ('Î´Ö¸¶¨') ) ;
#5 = COORDINATED_UNIVERSAL_TIME_OFFSET ( 8, 0, .AHEAD. ) ;
#6 = APPROVAL_ROLE ( '' ) ;
#7 = DIRECTION ( 'NONE',  ( 1.224646799147353454E-16, -1.000000000000000000, 0.000000000000000000 ) ) ;
#8 = PERSON_AND_ORGANIZATION ( #4, #227 ) ;
#9 = ORIENTED_EDGE ( 'NONE', *, *, #141, .T. ) ;
#10 = PERSON_AND_ORGANIZATION ( #4, #227 ) ;
#11 = LINE ( 'NONE', #81, #18 ) ;
#12 = VERTEX_POINT ( 'NONE', #46 ) ;
#13 = DIRECTION ( 'NONE',  ( -0.000000000000000000, 0.000000000000000000, 1.000000000000000000 ) ) ;
#14 = CARTESIAN_POINT ( 'NONE',  ( -14.99999999999999645, -14.78966735935726895, 45.00000000000000000 ) ) ;
#15 = LINE ( 'NONE', #160, #25 ) ;
#16 = AXIS2_PLACEMENT_3D ( 'NONE', #68, #125, #177 ) ;
#17 = CARTESIAN_POINT ( 'NONE',  ( 0.000000000000000000, 0.000000000000000000, 0.000000000000000000 ) ) ;
#18 = VECTOR ( 'NONE', #217, 1000.000000000000000 ) ;
#19 = ORIENTED_EDGE ( 'NONE', *, *, #66, .F. ) ;
#20 = LINE ( 'NONE', #100, #116 ) ;
#21 = APPROVAL_STATUS ( 'not_yet_approved' ) ;
#22 = APPROVAL ( #71, 'Î´Ö¸¶¨' ) ;
#23 = PLANE ( 'NONE',  #219 ) ;
#24 = CALENDAR_DATE ( 2023, 27, 8 ) ;
#25 = VECTOR ( 'NONE', #85, 1000.000000000000000 ) ;
#26 = EDGE_LOOP ( 'NONE', ( #173, #103, #179, #158 ) ) ;
#27 = CALENDAR_DATE ( 2023, 27, 8 ) ;
#28 = ORIENTED_EDGE ( 'NONE', *, *, #129, .F. ) ;
#29 = EDGE_LOOP ( 'NONE', ( #189, #28, #112, #142 ) ) ;
#30 = DIRECTION ( 'NONE',  ( -1.000000000000000000, -0.000000000000000000, -0.000000000000000000 ) ) ;
#31 = DIRECTION ( 'NONE',  ( -1.000000000000000000, -0.000000000000000000, -0.000000000000000000 ) ) ;
#32 = ADVANCED_FACE ( 'NONE', ( #45 ), #23, .F. ) ;
#33 = LINE ( 'NONE', #86, #152 ) ;
#34 = FACE_OUTER_BOUND ( 'NONE', #208, .T. ) ;
#35 = CARTESIAN_POINT ( 'NONE',  ( -14.99999999999999645, -14.78966735935726895, 0.000000000000000000 ) ) ;
#36 = EDGE_CURVE ( 'NONE', #77, #172, #193, .T. ) ;
#37 = LOCAL_TIME ( 15, 20, 43.00000000000000000, #5 ) ;
#38 = PLANE ( 'NONE',  #16 ) ;
#39 = DATE_AND_TIME ( #96, #206 ) ;
#40 = ORIENTED_EDGE ( 'NONE', *, *, #119, .F. ) ;
#41 = PERSON_AND_ORGANIZATION_ROLE ( 'creator' ) ;
#42 = CARTESIAN_POINT ( 'NONE',  ( 3.673940397442059178E-15, -14.78966735935726895, 45.00000000000000000 ) ) ;
#43 = ORIENTED_EDGE ( 'NONE', *, *, #163, .F. ) ;
#44 = APPROVAL_STATUS ( 'not_yet_approved' ) ;
#45 = FACE_OUTER_BOUND ( 'NONE', #29, .T. ) ;
#46 = CARTESIAN_POINT ( 'NONE',  ( -15.00000000000000000, 15.21033264064272927, 45.00000000000000000 ) ) ;
#47 = APPROVAL_PERSON_ORGANIZATION ( #224, #84, #6 ) ;
#48 = LINE ( 'NONE', #196, #123 ) ;
#49 = VECTOR ( 'NONE', #212, 1000.000000000000000 ) ;
#50 = VECTOR ( 'NONE', #147, 1000.000000000000000 ) ;
#51 = APPROVAL ( #21, 'Î´Ö¸¶¨' ) ;
#52 = CARTESIAN_POINT ( 'NONE',  ( 0.000000000000000000, 15.21033264064272927, 0.000000000000000000 ) ) ;
#53 = CARTESIAN_POINT ( 'NONE',  ( 0.000000000000000000, 15.21033264064272927, 45.00000000000000000 ) ) ;
#54 = CARTESIAN_POINT ( 'NONE',  ( -14.99999999999999645, -14.78966735935726895, 45.00000000000000000 ) ) ;
#55 = PRODUCT_DEFINITION ( 'Î´Öª', '', #106, #145 ) ;
#56 = APPROVAL_DATE_TIME ( #183, #22 ) ;
#57 = EDGE_CURVE ( 'NONE', #120, #229, #222, .T. ) ;
#58 = CARTESIAN_POINT ( 'NONE',  ( 0.000000000000000000, 15.21033264064272927, 0.000000000000000000 ) ) ;
#59 = PERSON_AND_ORGANIZATION_ROLE ( 'classification_officer' ) ;
#60 = APPROVAL_DATE_TIME ( #192, #84 ) ;
#61 = PRODUCT_DEFINITION_SHAPE ( 'NONE', 'NONE',  #55 ) ;
#62 = DIRECTION ( 'NONE',  ( -0.000000000000000000, -0.000000000000000000, -1.000000000000000000 ) ) ;
#63 = EDGE_LOOP ( 'NONE', ( #98, #205, #207, #64 ) ) ;
#64 = ORIENTED_EDGE ( 'NONE', *, *, #36, .T. ) ;
#65 = DIRECTION ( 'NONE',  ( -1.224646799147353207E-16, 1.000000000000000000, -0.000000000000000000 ) ) ;
#66 = EDGE_CURVE ( 'NONE', #156, #114, #135, .T. ) ;
#67 = PLANE ( 'NONE',  #215 ) ;
#68 = CARTESIAN_POINT ( 'NONE',  ( -15.00000000000000000, 15.21033264064272927, 45.00000000000000000 ) ) ;
#69 = CC_DESIGN_PERSON_AND_ORGANIZATION_ASSIGNMENT ( #140, #136, ( #92 ) ) ;
#70 = DIRECTION ( 'NONE',  ( 0.000000000000000000, 1.000000000000000000, 0.000000000000000000 ) ) ;
#71 = APPROVAL_STATUS ( 'not_yet_approved' ) ;
#72 = COORDINATED_UNIVERSAL_TIME_OFFSET ( 8, 0, .AHEAD. ) ;
#73 = CC_DESIGN_DATE_AND_TIME_ASSIGNMENT ( #39, #76, ( #55 ) ) ;
#74 = PERSON_AND_ORGANIZATION_ROLE ( 'design_supplier' ) ;
#75 = CC_DESIGN_APPROVAL ( #51, ( #106 ) ) ;
#76 = DATE_TIME_ROLE ( 'creation_date' ) ;
#77 = VERTEX_POINT ( 'NONE', #124 ) ;
#78 = CALENDAR_DATE ( 2023, 27, 8 ) ;
#79 = ORIENTED_EDGE ( 'NONE', *, *, #163, .T. ) ;
#80 = DATE_AND_TIME ( #24, #95 ) ;
#81 = CARTESIAN_POINT ( 'NONE',  ( -15.00000000000000000, 15.21033264064272927, 45.00000000000000000 ) ) ;
#82 = ORIENTED_EDGE ( 'NONE', *, *, #97, .F. ) ;
#83 = CARTESIAN_POINT ( 'NONE',  ( 0.000000000000000000, 15.21033264064272927, 45.00000000000000000 ) ) ;
#84 = APPROVAL ( #44, 'Î´Ö¸¶¨' ) ;
#85 = DIRECTION ( 'NONE',  ( 1.156482317317871478E-16, -1.000000000000000000, 0.000000000000000000 ) ) ;
#86 = CARTESIAN_POINT ( 'NONE',  ( -15.00000000000000000, 15.21033264064272927, 45.00000000000000000 ) ) ;
#87 = LINE ( 'NONE', #236, #50 ) ;
#88 = APPLICATION_CONTEXT ( 'configuration controlled 3d designs of mechanical parts and assemblies' ) ;
#89 = CC_DESIGN_APPROVAL ( #22, ( #180 ) ) ;
#90 = ADVANCED_FACE ( 'NONE', ( #146 ), #67, .T. ) ;
#91 =( NAMED_UNIT ( * ) SI_UNIT ( $, .STERADIAN. ) SOLID_ANGLE_UNIT ( ) );
#92 = PRODUCT ( '³¤·½Ìå', '³¤·½Ìå', '', ( #117 ) ) ;
#93 = CARTESIAN_POINT ( 'NONE',  ( 0.000000000000000000, 0.000000000000000000, 0.000000000000000000 ) ) ;
#94 = ORIENTED_EDGE ( 'NONE', *, *, #202, .F. ) ;
#95 = LOCAL_TIME ( 15, 20, 43.00000000000000000, #226 ) ;
#96 = CALENDAR_DATE ( 2023, 27, 8 ) ;
#97 = EDGE_CURVE ( 'NONE', #114, #172, #15, .T. ) ;
#98 = ORIENTED_EDGE ( 'NONE', *, *, #202, .T. ) ;
#99 = DIRECTION ( 'NONE',  ( 0.000000000000000000, 0.000000000000000000, 1.000000000000000000 ) ) ;
#100 = CARTESIAN_POINT ( 'NONE',  ( 0.000000000000000000, 15.21033264064272927, 45.00000000000000000 ) ) ;
#101 = ORIENTED_EDGE ( 'NONE', *, *, #113, .T. ) ;
#102 = DIRECTION ( 'NONE',  ( 1.000000000000000000, 0.000000000000000000, 0.000000000000000000 ) ) ;
#103 = ORIENTED_EDGE ( 'NONE', *, *, #141, .F. ) ;
#104 = PRODUCT_RELATED_PRODUCT_CATEGORY ( 'detail', '', ( #92 ) ) ;
#105 = DIRECTION ( 'NONE',  ( 1.000000000000000000, 0.000000000000000000, 0.000000000000000000 ) ) ;
#106 = PRODUCT_DEFINITION_FORMATION_WITH_SPECIFIED_SOURCE ( 'ÈÎºÎ', '', #92, .NOT_KNOWN. ) ;
#107 = AXIS2_PLACEMENT_3D ( 'NONE', #17, #13, #102 ) ;
#108 = PLANE ( 'NONE',  #107 ) ;
#109 = APPROVAL_ROLE ( '' ) ;
#110 = EDGE_CURVE ( 'NONE', #120, #220, #48, .T. ) ;
#111 = PERSON_AND_ORGANIZATION ( #4, #227 ) ;
#112 = ORIENTED_EDGE ( 'NONE', *, *, #110, .F. ) ;
#113 = EDGE_CURVE ( 'NONE', #220, #12, #162, .T. ) ;
#114 = VERTEX_POINT ( 'NONE', #231 ) ;
#115 = LOCAL_TIME ( 15, 20, 43.00000000000000000, #188 ) ;
#116 = VECTOR ( 'NONE', #175, 1000.000000000000000 ) ;
#117 = MECHANICAL_CONTEXT ( 'NONE', #88, 'mechanical' ) ;
#118 = DIRECTION ( 'NONE',  ( -1.000000000000000000, -1.224646799147353454E-16, 0.000000000000000000 ) ) ;
#119 = EDGE_CURVE ( 'NONE', #229, #156, #144, .T. ) ;
#120 = VERTEX_POINT ( 'NONE', #42 ) ;
#121 = CARTESIAN_POINT ( 'NONE',  ( -15.00000000000000000, 15.21033264064272927, 45.00000000000000000 ) ) ;
#122 = AXIS2_PLACEMENT_3D ( 'NONE', #93, #99, #154 ) ;
#123 = VECTOR ( 'NONE', #65, 1000.000000000000000 ) ;
#124 = CARTESIAN_POINT ( 'NONE',  ( -14.99999999999999645, -14.78966735935726895, 45.00000000000000000 ) ) ;
#125 = DIRECTION ( 'NONE',  ( 0.000000000000000000, -1.000000000000000000, 0.000000000000000000 ) ) ;
#126 = DIRECTION ( 'NONE',  ( -0.000000000000000000, 0.000000000000000000, 1.000000000000000000 ) ) ;
#127 = CARTESIAN_POINT ( 'NONE',  ( -14.99999999999999645, -14.78966735935726895, 0.000000000000000000 ) ) ;
#128 = APPROVAL_PERSON_ORGANIZATION ( #10, #51, #190 ) ;
#129 = EDGE_CURVE ( 'NONE', #220, #156, #20, .T. ) ;
#130 = VECTOR ( 'NONE', #204, 1000.000000000000000 ) ;
#131 = CC_DESIGN_APPROVAL ( #84, ( #55 ) ) ;
#132 = FACE_OUTER_BOUND ( 'NONE', #26, .T. ) ;
#133 = DIRECTION ( 'NONE',  ( -0.000000000000000000, -0.000000000000000000, -1.000000000000000000 ) ) ;
#134 = PERSON_AND_ORGANIZATION ( #4, #227 ) ;
#135 = LINE ( 'NONE', #181, #195 ) ;
#136 = PERSON_AND_ORGANIZATION_ROLE ( 'design_owner' ) ;
#137 = MANIFOLD_SOLID_BREP ( 'Í¹Ì¨-À­Éì1', #2 ) ;
#138 = EDGE_LOOP ( 'NONE', ( #79, #153, #194, #101 ) ) ;
#139 = AXIS2_PLACEMENT_3D ( 'NONE', #121, #159, #209 ) ;
#140 = PERSON_AND_ORGANIZATION ( #4, #227 ) ;
#141 = EDGE_CURVE ( 'NONE', #12, #114, #11, .T. ) ;
#142 = ORIENTED_EDGE ( 'NONE', *, *, #57, .T. ) ;
#143 = FACE_OUTER_BOUND ( 'NONE', #176, .T. ) ;
#144 = LINE ( 'NONE', #52, #130 ) ;
#145 = DESIGN_CONTEXT ( 'detailed design', #161, 'design' ) ;
#146 = FACE_OUTER_BOUND ( 'NONE', #138, .T. ) ;
#147 = DIRECTION ( 'NONE',  ( 1.000000000000000000, 0.000000000000000000, 0.000000000000000000 ) ) ;
#148 = CC_DESIGN_PERSON_AND_ORGANIZATION_ASSIGNMENT ( #8, #74, ( #106 ) ) ;
#149 = AXIS2_PLACEMENT_3D ( 'NONE', #54, #70, #164 ) ;
#150 = DATE_TIME_ROLE ( 'classification_date' ) ;
#151 = SECURITY_CLASSIFICATION_LEVEL ( 'unclassified' ) ;
#152 = VECTOR ( 'NONE', #199, 1000.000000000000000 ) ;
#153 = ORIENTED_EDGE ( 'NONE', *, *, #184, .T. ) ;
#154 = DIRECTION ( 'NONE',  ( 1.000000000000000000, 0.000000000000000000, 0.000000000000000000 ) ) ;
#155 = ADVANCED_BREP_SHAPE_REPRESENTATION ( '³¤·½Ìå', ( #137, #122 ), #228 ) ;
#156 = VERTEX_POINT ( 'NONE', #58 ) ;
#157 = ADVANCED_FACE ( 'NONE', ( #132 ), #38, .F. ) ;
#158 = ORIENTED_EDGE ( 'NONE', *, *, #129, .T. ) ;
#159 = DIRECTION ( 'NONE',  ( 1.000000000000000000, 1.156482317317871478E-16, -0.000000000000000000 ) ) ;
#160 = CARTESIAN_POINT ( 'NONE',  ( -15.00000000000000000, 15.21033264064272927, 0.000000000000000000 ) ) ;
#161 = APPLICATION_CONTEXT ( 'configuration controlled 3d designs of mechanical parts and assemblies' ) ;
#162 = LINE ( 'NONE', #232, #234 ) ;
#163 = EDGE_CURVE ( 'NONE', #12, #77, #33, .T. ) ;
#164 = DIRECTION ( 'NONE',  ( 0.000000000000000000, -0.000000000000000000, 1.000000000000000000 ) ) ;
#165 = CC_DESIGN_PERSON_AND_ORGANIZATION_ASSIGNMENT ( #111, #170, ( #106 ) ) ;
#166 = PLANE ( 'NONE',  #149 ) ;
#167 =( NAMED_UNIT ( * ) PLANE_ANGLE_UNIT ( ) SI_UNIT ( $, .RADIAN. ) );
#168 = VECTOR ( 'NONE', #62, 1000.000000000000000 ) ;
#169 = DATE_AND_TIME ( #78, #115 ) ;
#170 = PERSON_AND_ORGANIZATION_ROLE ( 'creator' ) ;
#171 = APPLICATION_PROTOCOL_DEFINITION ( 'international standard', 'config_control_design', 1994, #88 ) ;
#172 = VERTEX_POINT ( 'NONE', #35 ) ;
#173 = ORIENTED_EDGE ( 'NONE', *, *, #66, .T. ) ;
#174 = COORDINATED_UNIVERSAL_TIME_OFFSET ( 8, 0, .AHEAD. ) ;
#175 = DIRECTION ( 'NONE',  ( -0.000000000000000000, -0.000000000000000000, -1.000000000000000000 ) ) ;
#176 = EDGE_LOOP ( 'NONE', ( #191, #225, #43, #9 ) ) ;
#177 = DIRECTION ( 'NONE',  ( 0.000000000000000000, -0.000000000000000000, -1.000000000000000000 ) ) ;
#178 = PLANE ( 'NONE',  #139 ) ;
#179 = ORIENTED_EDGE ( 'NONE', *, *, #113, .F. ) ;
#180 = SECURITY_CLASSIFICATION ( '', '', #151 ) ;
#181 = CARTESIAN_POINT ( 'NONE',  ( -15.00000000000000000, 15.21033264064272927, 0.000000000000000000 ) ) ;
#182 = UNCERTAINTY_MEASURE_WITH_UNIT (LENGTH_MEASURE( 1.000000000000000082E-05 ), #214, 'distance_accuracy_value', 'NONE');
#183 = DATE_AND_TIME ( #185, #233 ) ;
#184 = EDGE_CURVE ( 'NONE', #77, #120, #87, .T. ) ;
#185 = CALENDAR_DATE ( 2023, 27, 8 ) ;
#186 = CC_DESIGN_PERSON_AND_ORGANIZATION_ASSIGNMENT ( #218, #59, ( #180 ) ) ;
#187 = APPROVAL_DATE_TIME ( #80, #51 ) ;
#188 = COORDINATED_UNIVERSAL_TIME_OFFSET ( 8, 0, .AHEAD. ) ;
#189 = ORIENTED_EDGE ( 'NONE', *, *, #119, .T. ) ;
#190 = APPROVAL_ROLE ( '' ) ;
#191 = ORIENTED_EDGE ( 'NONE', *, *, #97, .T. ) ;
#192 = DATE_AND_TIME ( #27, #37 ) ;
#193 = LINE ( 'NONE', #14, #200 ) ;
#194 = ORIENTED_EDGE ( 'NONE', *, *, #110, .T. ) ;
#195 = VECTOR ( 'NONE', #31, 1000.000000000000000 ) ;
#196 = CARTESIAN_POINT ( 'NONE',  ( 0.000000000000000000, 15.21033264064272927, 45.00000000000000000 ) ) ;
#197 = ADVANCED_FACE ( 'NONE', ( #237 ), #166, .F. ) ;
#198 = CARTESIAN_POINT ( 'NONE',  ( 3.673940397442059178E-15, -14.78966735935726895, 0.000000000000000000 ) ) ;
#199 = DIRECTION ( 'NONE',  ( 1.156482317317871478E-16, -1.000000000000000000, 0.000000000000000000 ) ) ;
#200 = VECTOR ( 'NONE', #133, 1000.000000000000000 ) ;
#201 = SHAPE_DEFINITION_REPRESENTATION ( #61, #155 ) ;
#202 = EDGE_CURVE ( 'NONE', #172, #229, #213, .T. ) ;
#203 = CARTESIAN_POINT ( 'NONE',  ( 3.673940397442059178E-15, -14.78966735935726895, 45.00000000000000000 ) ) ;
#204 = DIRECTION ( 'NONE',  ( -1.224646799147353207E-16, 1.000000000000000000, -0.000000000000000000 ) ) ;
#205 = ORIENTED_EDGE ( 'NONE', *, *, #57, .F. ) ;
#206 = LOCAL_TIME ( 15, 20, 43.00000000000000000, #174 ) ;
#207 = ORIENTED_EDGE ( 'NONE', *, *, #184, .F. ) ;
#208 = EDGE_LOOP ( 'NONE', ( #82, #19, #40, #94 ) ) ;
#209 = DIRECTION ( 'NONE',  ( -1.156482317317871478E-16, 1.000000000000000000, 0.000000000000000000 ) ) ;
#210 = APPROVAL_PERSON_ORGANIZATION ( #216, #22, #109 ) ;
#211 = CARTESIAN_POINT ( 'NONE',  ( 0.000000000000000000, 0.000000000000000000, 45.00000000000000000 ) ) ;
#212 = DIRECTION ( 'NONE',  ( 1.000000000000000000, 0.000000000000000000, 0.000000000000000000 ) ) ;
#213 = LINE ( 'NONE', #127, #49 ) ;
#214 =( LENGTH_UNIT ( ) NAMED_UNIT ( * ) SI_UNIT ( .MILLI., .METRE. ) );
#215 = AXIS2_PLACEMENT_3D ( 'NONE', #211, #126, #105 ) ;
#216 = PERSON_AND_ORGANIZATION ( #4, #227 ) ;
#217 = DIRECTION ( 'NONE',  ( -0.000000000000000000, -0.000000000000000000, -1.000000000000000000 ) ) ;
#218 = PERSON_AND_ORGANIZATION ( #4, #227 ) ;
#219 = AXIS2_PLACEMENT_3D ( 'NONE', #83, #118, #7 ) ;
#220 = VERTEX_POINT ( 'NONE', #53 ) ;
#221 = APPLICATION_PROTOCOL_DEFINITION ( 'international standard', 'config_control_design', 1994, #161 ) ;
#222 = LINE ( 'NONE', #203, #168 ) ;
#223 = CC_DESIGN_PERSON_AND_ORGANIZATION_ASSIGNMENT ( #134, #41, ( #55 ) ) ;
#224 = PERSON_AND_ORGANIZATION ( #4, #227 ) ;
#225 = ORIENTED_EDGE ( 'NONE', *, *, #36, .F. ) ;
#226 = COORDINATED_UNIVERSAL_TIME_OFFSET ( 8, 0, .AHEAD. ) ;
#227 = ORGANIZATION ( 'Î´Ö¸¶¨', 'Î´Ö¸¶¨', '' ) ;
#228 =( GEOMETRIC_REPRESENTATION_CONTEXT ( 3 ) GLOBAL_UNCERTAINTY_ASSIGNED_CONTEXT ( ( #182 ) ) GLOBAL_UNIT_ASSIGNED_CONTEXT ( ( #214, #167, #91 ) ) REPRESENTATION_CONTEXT ( 'NONE', 'WORKASPACE' ) );
#229 = VERTEX_POINT ( 'NONE', #198 ) ;
#230 = ADVANCED_FACE ( 'NONE', ( #34 ), #108, .F. ) ;
#231 = CARTESIAN_POINT ( 'NONE',  ( -15.00000000000000000, 15.21033264064272927, 0.000000000000000000 ) ) ;
#232 = CARTESIAN_POINT ( 'NONE',  ( -15.00000000000000000, 15.21033264064272927, 45.00000000000000000 ) ) ;
#233 = LOCAL_TIME ( 15, 20, 43.00000000000000000, #72 ) ;
#234 = VECTOR ( 'NONE', #30, 1000.000000000000000 ) ;
#235 = ADVANCED_FACE ( 'NONE', ( #143 ), #178, .F. ) ;
#236 = CARTESIAN_POINT ( 'NONE',  ( -14.99999999999999645, -14.78966735935726895, 45.00000000000000000 ) ) ;
#237 = FACE_OUTER_BOUND ( 'NONE', #63, .T. ) ;
ENDSEC;
END-ISO-10303-21;
